  0
SECTION
  2
HEADER
  9
$ACADVER
  1
AC1009
  9
$INSBASE
 10
117.4595948661339
 20
96.438117
 30
0.0
  9
$EXTMIN
 10
117.4595948661339
 20
96.438117
 30
0.0
  9
$EXTMAX
 10
283.7871343905932
 20
293.2298339999999
 30
0.0
  9
$LIMMIN
 10
0.0
 20
0.0
  9
$LIMMAX
 10
420.0
 20
297.0
  9
$ORTHOMODE
 70
     0
  9
$REGENMODE
 70
     1
  9
$FILLMODE
 70
     1
  9
$QTEXTMODE
 70
     0
  9
$MIRRTEXT
 70
     0
  9
$DRAGMODE
 70
     2
  9
$LTSCALE
 40
1.0
  9
$OSMODE
 70
     0
  9
$ATTMODE
 70
     1
  9
$TEXTSIZE
 40
3.5
  9
$TRACEWID
 40
0.05
  9
$TEXTSTYLE
  7
STANDARD
  9
$CLAYER
  8
ITEM_50
  9
$CELTYPE
  6
BYLAYER
  9
$CECOLOR
 62
   256
  9
$DIMSCALE
 40
1.0
  9
$DIMASZ
 40
2.5
  9
$DIMEXO
 40
1.0
  9
$DIMDLI
 40
8.0
  9
$DIMRND
 40
0.0
  9
$DIMDLE
 40
0.0
  9
$DIMEXE
 40
2.0
  9
$DIMTP
 40
0.1
  9
$DIMTM
 40
0.1
  9
$DIMTXT
 40
3.5
  9
$DIMCEN
 40
2.0
  9
$DIMTSZ
 40
0.0
  9
$DIMTOL
 70
     0
  9
$DIMLIM
 70
     0
  9
$DIMTIH
 70
     0
  9
$DIMTOH
 70
     0
  9
$DIMSE1
 70
     0
  9
$DIMSE2
 70
     0
  9
$DIMTAD
 70
     1
  9
$DIMZIN
 70
     8
  9
$DIMBLK
  1

  9
$DIMASO
 70
     0
  9
$DIMSHO
 70
     0
  9
$DIMPOST
  1

  9
$DIMAPOST
  1

  9
$DIMALT
 70
     0
  9
$DIMALTD
 70
     2
  9
$DIMALTF
 40
25.39999999999999
  9
$DIMLFAC
 40
1.0
  9
$DIMTOFL
 70
     1
  9
$DIMTVP
 40
0.0
  9
$DIMTIX
 70
     0
  9
$DIMSOXD
 70
     0
  9
$DIMSAH
 70
     0
  9
$DIMBLK1
  1

  9
$DIMBLK2
  1

  9
$DIMSTYLE
  2
*UNNAMED
  9
$DIMCLRD
 70
     0
  9
$DIMCLRE
 70
     0
  9
$DIMCLRT
 70
     0
  9
$DIMTFAC
 40
1.0
  9
$DIMGAP
 40
0.09
  9
$LUNITS
 70
     2
  9
$LUPREC
 70
     3
  9
$SKETCHINC
 40
0.1
  9
$FILLETRAD
 40
20.0
  9
$AUNITS
 70
     0
  9
$AUPREC
 70
     3
  9
$MENU
  1

  9
$ELEVATION
 40
0.0
  9
$PELEVATION
 40
0.0
  9
$THICKNESS
 40
0.0
  9
$LIMCHECK
 70
     0
  9
$BLIPMODE
 70
     0
  9
$CHAMFERA
 40
0.0
  9
$CHAMFERB
 40
0.0
  9
$SKPOLY
 70
     1
  9
$TDCREATE
 40
2449058.638490393
  9
$TDUPDATE
 40
2449393.453209606
  9
$TDINDWG
 40
0.0004442130
  9
$TDUSRTIMER
 40
0.0004442130
  9
$USRTIMER
 70
     1
  9
$ANGBASE
 50
0.0
  9
$ANGDIR
 70
     0
  9
$PDMODE
 70
     3
  9
$PDSIZE
 40
2.0
  9
$PLINEWID
 40
0.0
  9
$COORDS
 70
     2
  9
$SPLFRAME
 70
     0
  9
$SPLINETYPE
 70
     6
  9
$SPLINESEGS
 70
     8
  9
$ATTDIA
 70
     1
  9
$ATTREQ
 70
     1
  9
$HANDLING
 70
     0
  9
$HANDSEED
  5
15A
  9
$SURFTAB1
 70
     6
  9
$SURFTAB2
 70
     6
  9
$SURFTYPE
 70
     6
  9
$SURFU
 70
     6
  9
$SURFV
 70
     6
  9
$UCSNAME
  2

  9
$UCSORG
 10
0.0
 20
0.0
 30
0.0
  9
$UCSXDIR
 10
1.0
 20
0.0
 30
0.0
  9
$UCSYDIR
 10
0.0
 20
1.0
 30
0.0
  9
$PUCSNAME
  2

  9
$PUCSORG
 10
0.0
 20
0.0
 30
0.0
  9
$PUCSXDIR
 10
1.0
 20
0.0
 30
0.0
  9
$PUCSYDIR
 10
0.0
 20
1.0
 30
0.0
  9
$USERI1
 70
     0
  9
$USERI2
 70
     3
  9
$USERI3
 70
    15
  9
$USERI4
 70
     0
  9
$USERI5
 70
     0
  9
$USERR1
 40
0.0
  9
$USERR2
 40
1.0
  9
$USERR3
 40
0.0
  9
$USERR4
 40
1.0
  9
$USERR5
 40
0.0
  9
$WORLDVIEW
 70
     1
  9
$SHADEDGE
 70
     3
  9
$SHADEDIF
 70
    70
  9
$TILEMODE
 70
     1
  9
$MAXACTVP
 70
    16
  9
$PINSBASE
 10
0.0
 20
0.0
 30
0.0
  9
$PLIMCHECK
 70
     0
  9
$PEXTMIN
 10
1.000000000000000E+20
 20
1.000000000000000E+20
 30
1.000000000000000E+20
  9
$PEXTMAX
 10
-1.000000000000000E+20
 20
-1.000000000000000E+20
 30
-1.000000000000000E+20
  9
$PLIMMIN
 10
0.0
 20
0.0
  9
$PLIMMAX
 10
12.0
 20
9.0
  9
$UNITMODE
 70
     0
  9
$VISRETAIN
 70
     0
  9
$PLINEGEN
 70
     0
  9
$PSLTSCALE
 70
     0
  9
$TREEDEPTH
 70
  3020
  9
$DWGCODEPAGE
  3
undefined
  0
ENDSEC
  0
SECTION
  2
TABLES
  0
TABLE
  2
VPORT
 70
     2
  0
VPORT
  2
*ACTIVE
 70
     0
 10
0.0
 20
0.0
 11
1.0
 21
1.0
 12
253.3170091323989
 22
202.9365137765213
 13
0.0
 23
0.0
 14
7.0
 24
7.0
 15
0.0
 25
0.0
 16
0.0
 26
0.0
 36
1.0
 17
0.0
 27
0.0
 37
0.0
 40
212.9967935530426
 41
1.275675675675675
 42
50.0
 43
0.0
 44
0.0
 50
0.0
 51
0.0
 71
     0
 72
 10000
 73
     1
 74
     0
 75
     0
 76
     0
 77
     0
 78
     0
  0
ENDTAB
  0
TABLE
  2
LTYPE
 70
     2
  0
LTYPE
  2
AUSGEZOGEN
 70
    64
  3
Solid line
 72
    65
 73
     0
 40
0.0
  0
LTYPE
  2
ITEM-STRICHPGR
 70
    64
  3
____ . ____ . ____ . ____ . ____ . ____ . ____
 72
    65
 73
     4
 40
15.0
 49
10.0
 49
-2.5
 49
0.0
 49
-2.5
  0
ENDTAB
  0
TABLE
  2
LAYER
 70
     5
  0
LAYER
  2
0
 70
     0
 62
     7
  6
AUSGEZOGEN
  0
LAYER
  2
ITEM_50
 70
    64
 62
     7
  6
AUSGEZOGEN
  0
LAYER
  2
ITEM_HILFE
 70
    64
 62
     3
  6
AUSGEZOGEN
  0
LAYER
  2
ITEM_STPG
 70
    64
 62
     4
  6
ITEM-STRICHPGR
  0
LAYER
  2
DEFPOINTS
 70
    64
 62
     7
  6
AUSGEZOGEN
  0
ENDTAB
  0
TABLE
  2
STYLE
 70
     1
  0
STYLE
  2
STANDARD
 70
     0
 40
0.0
 41
1.0
 50
0.0
 71
     0
 42
3.5
  3
iso
  4

  0
ENDTAB
  0
TABLE
  2
VIEW
 70
     0
  0
ENDTAB
  0
TABLE
  2
UCS
 70
     0
  0
ENDTAB
  0
TABLE
  2
APPID
 70
     1
  0
APPID
  2
ACAD
 70
    64
  0
ENDTAB
  0
TABLE
  2
DIMSTYLE
 70
     0
  0
ENDTAB
  0
ENDSEC
  0
SECTION
  2
BLOCKS
  0
ENDSEC
  0
SECTION
  2
ENTITIES
  0
POINT
  8
ITEM_HILFE
 10
118.8739219999999
 20
99.165222
 30
0.0
  0
POINT
  8
ITEM_HILFE
 10
118.8739219999999
 20
179.165222
 30
0.0
  0
POINT
  8
ITEM_HILFE
 10
158.8739219999999
 20
179.165222
 30
0.0
  0
POINT
  8
ITEM_HILFE
 10
158.8739219999999
 20
99.165222
 30
0.0
  0
POINT
  8
ITEM_HILFE
 10
158.8739219999999
 20
285.7155559999999
 30
0.0
  0
POINT
  8
ITEM_HILFE
 10
118.8739219999999
 20
285.7155559999999
 30
0.0
  0
POINT
  8
ITEM_HILFE
 10
158.8739219999999
 20
205.7155559999999
 30
0.0
  0
POINT
  8
ITEM_HILFE
 10
118.8739219999999
 20
205.7155559999999
 30
0.0
  0
POINT
  8
ITEM_HILFE
 10
203.683581
 20
285.7155559999999
 30
0.0
  0
POINT
  8
ITEM_HILFE
 10
244.183581
 20
245.2155559999999
 30
0.0
  0
LINE
  8
ITEM_STPG
 10
208.0693679999999
 20
225.7155559999999
 30
0.0
 11
199.3911629999999
 21
225.7155559999999
 31
0.0
  0
LINE
  8
ITEM_STPG
 10
210.2624839999999
 20
210.7155559999999
 30
0.0
 11
196.169303
 21
210.7155559999999
 31
0.0
  0
LINE
  8
ITEM_50
 10
199.2835809999999
 20
209.94744
 30
0.0
 11
203.683581
 21
209.78802
 31
0.0
  0
LINE
  8
ITEM_50
 10
199.2835809999999
 20
211.483672
 30
0.0
 11
203.683581
 21
211.643093
 31
0.0
  0
LINE
  8
ITEM_50
 10
199.2835809999999
 20
209.94744
 30
0.0
 11
199.2835809999999
 21
211.483672
 31
0.0
  0
LINE
  8
ITEM_STPG
 10
210.2624839999999
 20
242.7155559999999
 30
0.0
 11
196.169303
 21
242.7155559999999
 31
0.0
  0
LINE
  8
ITEM_50
 10
199.2835809999999
 20
241.94744
 30
0.0
 11
199.2835809999999
 21
243.483672
 31
0.0
  0
LINE
  8
ITEM_50
 10
199.2835809999999
 20
243.483672
 30
0.0
 11
203.683581
 21
243.643093
 31
0.0
  0
LINE
  8
ITEM_50
 10
199.2835809999999
 20
241.94744
 30
0.0
 11
203.683581
 21
241.78802
 31
0.0
  0
LINE
  8
ITEM_50
 10
122.8739219999999
 20
179.165222
 30
0.0
 11
124.162208
 21
165.165222
 31
0.0
  0
LINE
  8
ITEM_50
 10
154.8739219999999
 20
179.165222
 30
0.0
 11
153.585636
 21
165.165222
 31
0.0
  0
CIRCLE
  8
ITEM_50
 10
138.8739219999999
 20
265.7155559999999
 30
0.0
 40
4.099999999999999
  0
CIRCLE
  8
ITEM_50
 10
138.8739219999999
 20
225.7155559999999
 30
0.0
 40
4.099999999999999
  0
LINE
  8
ITEM_50
 10
126.6069219999999
 20
281.7155559999999
 30
0.0
 11
126.6259649999999
 21
281.7155559999999
 31
0.0
  0
LINE
  8
ITEM_50
 10
126.6069219999999
 20
281.7155559999999
 30
0.0
 11
126.6259649999999
 21
281.7155559999999
 31
0.0
  0
LINE
  8
ITEM_50
 10
126.6069219999999
 20
281.7155559999999
 30
0.0
 11
126.6259649999999
 21
281.7155559999999
 31
0.0
  0
LINE
  8
ITEM_50
 10
151.1409219999999
 20
281.7155559999999
 30
0.0
 11
151.121879
 21
281.7155559999999
 31
0.0
  0
LINE
  8
ITEM_STPG
 10
132.2170169999999
 20
270.8087029999999
 30
0.0
 11
119.0649679999999
 21
270.8087029999999
 31
0.0
  0
POLYLINE
  8
ITEM_50
 66
     1
 10
0.0
 20
0.0
 30
0.0
 70
     1
  0
VERTEX
  8
ITEM_50
 10
125.8739219999999
 20
273.212866
 30
0.0
 42
-0.071352
  0
VERTEX
  8
ITEM_50
 10
127.2208439999999
 20
273.019672
 30
0.0
 42
-0.082828
  0
VERTEX
  8
ITEM_50
 10
128.278085
 20
272.5087029999999
 30
0.0
 42
-0.106756
 70
     2
 50
215.2643899999999
  0
VERTEX
  8
ITEM_50
 10
129.036998
 20
271.681899
 30
0.0
 42
-0.133256
  0
VERTEX
  8
ITEM_50
 10
129.2739219999999
 20
270.8087029999999
 30
0.0
 42
-0.133256
  0
VERTEX
  8
ITEM_50
 10
129.036998
 20
269.9355069999999
 30
0.0
 42
-0.106756
  0
VERTEX
  8
ITEM_50
 10
128.278085
 20
269.1087029999999
 30
0.0
 42
-0.082828
 70
     2
 50
324.73561
  0
VERTEX
  8
ITEM_50
 10
127.2208439999999
 20
268.597734
 30
0.0
 42
-0.071352
  0
VERTEX
  8
ITEM_50
 10
125.8739219999999
 20
268.4045399999999
 30
0.0
 42
-0.071352
  0
VERTEX
  8
ITEM_50
 10
124.527
 20
268.597734
 30
0.0
 42
-0.082828
  0
VERTEX
  8
ITEM_50
 10
123.469759
 20
269.1087029999999
 30
0.0
 42
-0.106756
 70
     2
 50
35.26438999999999
  0
VERTEX
  8
ITEM_50
 10
122.710847
 20
269.9355069999999
 30
0.0
 42
-0.133256
  0
VERTEX
  8
ITEM_50
 10
122.473922
 20
270.8087029999999
 30
0.0
 42
-0.133256
  0
VERTEX
  8
ITEM_50
 10
122.710847
 20
271.681899
 30
0.0
 42
-0.106756
  0
VERTEX
  8
ITEM_50
 10
123.469759
 20
272.5087029999999
 30
0.0
 42
-0.082828
 70
     2
 50
144.73561
  0
VERTEX
  8
ITEM_50
 10
124.527
 20
273.019672
 30
0.0
 42
-0.071352
  0
SEQEND
  8
ITEM_50
  0
ARC
  8
ITEM_50
 10
124.4756429999999
 20
278.290953
 30
0.0
 40
3.355449999999999
 50
213.424549
 51
237.8875129999999
  0
ARC
  8
ITEM_50
 10
125.319962
 20
279.6362619999999
 30
0.0
 40
4.943761
 50
237.8875129999999
 51
255.4278509999999
  0
POLYLINE
  8
ITEM_50
 66
     1
 10
0.0
 20
0.0
 30
0.0
  0
VERTEX
  8
ITEM_50
 10
125.8739219999999
 20
274.621674
 30
0.0
 42
-0.071256
  0
VERTEX
  8
ITEM_50
 10
128.0133849999999
 20
274.31522
 30
0.0
 42
-0.082756
  0
VERTEX
  8
ITEM_50
 10
129.6922989999999
 20
273.504881
 30
0.0
 42
-0.106769
 70
     2
 50
215.2261349999999
  0
VERTEX
  8
ITEM_50
 10
130.8977979999999
 20
272.1932319999999
 30
0.0
 42
-0.133413
  0
VERTEX
  8
ITEM_50
 10
131.2739219999999
 20
270.8087029999999
 30
0.0
 42
-0.133413
  0
VERTEX
  8
ITEM_50
 10
130.8977979999999
 20
269.424174
 30
0.0
 42
-0.106769
  0
VERTEX
  8
ITEM_50
 10
129.6922989999999
 20
268.112525
 30
0.0
 42
-0.082756
 70
     2
 50
324.773865
  0
VERTEX
  8
ITEM_50
 10
128.0133849999999
 20
267.302186
 30
0.0
 42
-0.071256
  0
VERTEX
  8
ITEM_50
 10
125.8739219999999
 20
266.9957319999999
 30
0.0
 42
-0.071256
  0
SEQEND
  8
ITEM_50
  0
ARC
  8
ITEM_50
 10
125.8739219999999
 20
281.767195
 30
0.0
 40
7.145521
 50
255.4278509999999
 51
270.0
  0
ARC
  8
ITEM_50
 10
125.319962
 20
261.9811439999999
 30
0.0
 40
4.943761
 50
104.5721489999999
 51
122.112487
  0
ARC
  8
ITEM_50
 10
125.8739219999999
 20
259.850211
 30
0.0
 40
7.145521
 50
90.0
 51
104.5721489999999
  0
ARC
  8
ITEM_50
 10
124.4756429999999
 20
263.3264529999999
 30
0.0
 40
3.355449999999999
 50
122.112487
 51
146.5754509999999
  0
ARC
  8
ITEM_50
 10
123.1952239999999
 20
264.17152
 30
0.0
 40
1.821302
 50
146.5754509999999
 51
180.0042339999999
  0
ARC
  8
ITEM_50
 10
123.1952239999999
 20
277.4458859999999
 30
0.0
 40
1.821302
 50
180.0
 51
213.424549
  0
LINE
  8
ITEM_STPG
 10
125.8739219999999
 20
275.5349939999999
 30
0.0
 11
125.8739219999999
 21
265.8409189999999
 31
0.0
  0
LINE
  8
ITEM_50
 10
121.3739219999999
 20
277.7155559999999
 30
0.0
 11
121.3739219999999
 21
277.4458859999999
 31
0.0
  0
LINE
  8
ITEM_50
 10
121.3739219999999
 20
264.17152
 30
0.0
 11
121.3739219999999
 21
263.8608399999999
 31
0.0
  0
ARC
  8
ITEM_50
 10
123.1952239999999
 20
213.1225299999999
 30
0.0
 40
1.821302
 50
146.5754509999999
 51
180.0
  0
LINE
  8
ITEM_50
 10
121.3739219999999
 20
213.1225299999999
 30
0.0
 11
121.3739219999999
 21
212.7155559999999
 31
0.0
  0
LINE
  8
ITEM_STPG
 10
131.555059
 20
219.759712
 30
0.0
 11
120.728856
 21
219.759712
 31
0.0
  0
LINE
  8
ITEM_STPG
 10
125.8739219999999
 20
224.4860029999999
 30
0.0
 11
125.8739219999999
 21
214.791929
 31
0.0
  0
POLYLINE
  8
ITEM_50
 66
     1
 10
0.0
 20
0.0
 30
0.0
  0
VERTEX
  8
ITEM_50
 10
125.8739219999999
 20
223.572683
 30
0.0
 42
-0.071256
  0
VERTEX
  8
ITEM_50
 10
128.0133849999999
 20
223.266229
 30
0.0
 42
-0.082756
  0
VERTEX
  8
ITEM_50
 10
129.6922989999999
 20
222.4558899999999
 30
0.0
 42
-0.106769
 70
     2
 50
215.2261349999999
  0
VERTEX
  8
ITEM_50
 10
130.8977979999999
 20
221.144241
 30
0.0
 42
-0.133413
  0
VERTEX
  8
ITEM_50
 10
131.2739219999999
 20
219.759712
 30
0.0
 42
-0.133413
  0
VERTEX
  8
ITEM_50
 10
130.8977979999999
 20
218.375183
 30
0.0
 42
-0.106769
  0
VERTEX
  8
ITEM_50
 10
129.6922989999999
 20
217.0635339999999
 30
0.0
 42
-0.082756
 70
     2
 50
324.773865
  0
VERTEX
  8
ITEM_50
 10
128.0133849999999
 20
216.253195
 30
0.0
 42
-0.071256
  0
VERTEX
  8
ITEM_50
 10
125.8739219999999
 20
215.946741
 30
0.0
 42
-0.071256
  0
SEQEND
  8
ITEM_50
  0
POLYLINE
  8
ITEM_50
 66
     1
 10
0.0
 20
0.0
 30
0.0
 70
     1
  0
VERTEX
  8
ITEM_50
 10
125.8739219999999
 20
222.1638749999999
 30
0.0
 42
-0.071352
  0
VERTEX
  8
ITEM_50
 10
127.2208439999999
 20
221.970681
 30
0.0
 42
-0.082828
  0
VERTEX
  8
ITEM_50
 10
128.278085
 20
221.459712
 30
0.0
 42
-0.106756
 70
     2
 50
215.2643899999999
  0
VERTEX
  8
ITEM_50
 10
129.036998
 20
220.632908
 30
0.0
 42
-0.133256
  0
VERTEX
  8
ITEM_50
 10
129.2739219999999
 20
219.759712
 30
0.0
 42
-0.133256
  0
VERTEX
  8
ITEM_50
 10
129.036998
 20
218.886516
 30
0.0
 42
-0.106756
  0
VERTEX
  8
ITEM_50
 10
128.278085
 20
218.059712
 30
0.0
 42
-0.082828
 70
     2
 50
324.73561
  0
VERTEX
  8
ITEM_50
 10
127.2208439999999
 20
217.548743
 30
0.0
 42
-0.071352
  0
VERTEX
  8
ITEM_50
 10
125.8739219999999
 20
217.355549
 30
0.0
 42
-0.071352
  0
VERTEX
  8
ITEM_50
 10
124.527
 20
217.548743
 30
0.0
 42
-0.082828
  0
VERTEX
  8
ITEM_50
 10
123.469759
 20
218.059712
 30
0.0
 42
-0.106756
 70
     2
 50
35.26438999999999
  0
VERTEX
  8
ITEM_50
 10
122.710847
 20
218.886516
 30
0.0
 42
-0.133256
  0
VERTEX
  8
ITEM_50
 10
122.473922
 20
219.759712
 30
0.0
 42
-0.133256
  0
VERTEX
  8
ITEM_50
 10
122.710847
 20
220.632908
 30
0.0
 42
-0.106756
  0
VERTEX
  8
ITEM_50
 10
123.469759
 20
221.459712
 30
0.0
 42
-0.082828
 70
     2
 50
144.73561
  0
VERTEX
  8
ITEM_50
 10
124.527
 20
221.970681
 30
0.0
 42
-0.071352
  0
SEQEND
  8
ITEM_50
  0
ARC
  8
ITEM_50
 10
125.8739219999999
 20
230.718204
 30
0.0
 40
7.145521
 50
255.4278509999999
 51
270.0
  0
ARC
  8
ITEM_50
 10
125.319962
 20
228.5872709999999
 30
0.0
 40
4.943761
 50
237.8875129999999
 51
255.4278509999999
  0
ARC
  8
ITEM_50
 10
124.4756429999999
 20
227.241962
 30
0.0
 40
3.355449999999999
 50
213.424549
 51
237.8875129999999
  0
ARC
  8
ITEM_50
 10
123.1952239999999
 20
226.396895
 30
0.0
 40
1.821302
 50
179.995767
 51
213.424549
  0
ARC
  8
ITEM_50
 10
124.4756429999999
 20
212.277462
 30
0.0
 40
3.355449999999999
 50
122.112487
 51
146.5754509999999
  0
ARC
  8
ITEM_50
 10
125.319962
 20
210.9321529999999
 30
0.0
 40
4.943761
 50
104.5721489999999
 51
122.112487
  0
ARC
  8
ITEM_50
 10
125.8739219999999
 20
208.80122
 30
0.0
 40
7.145521
 50
90.0
 51
104.5721489999999
  0
LINE
  8
ITEM_50
 10
156.3739219999999
 20
264.17152
 30
0.0
 11
156.3739219999999
 21
263.8608399999999
 31
0.0
  0
LINE
  8
ITEM_50
 10
156.3739219999999
 20
277.7155559999999
 30
0.0
 11
156.3739219999999
 21
277.4458859999999
 31
0.0
  0
LINE
  8
ITEM_STPG
 10
151.8739219999999
 20
275.5349939999999
 30
0.0
 11
151.8739219999999
 21
265.8409189999999
 31
0.0
  0
ARC
  8
ITEM_50
 10
154.5526199999999
 20
277.4458859999999
 30
0.0
 40
1.821302
 50
326.5754509999999
 51
0.0
  0
ARC
  8
ITEM_50
 10
154.5526199999999
 20
264.17152
 30
0.0
 40
1.821302
 50
0.0
 51
33.42454899999999
  0
ARC
  8
ITEM_50
 10
153.2722019999999
 20
263.3264529999999
 30
0.0
 40
3.355449999999999
 50
33.42454899999999
 51
57.88751299999999
  0
ARC
  8
ITEM_50
 10
151.8739219999999
 20
259.850211
 30
0.0
 40
7.145521
 50
75.427851
 51
90.0
  0
ARC
  8
ITEM_50
 10
152.427883
 20
261.9811439999999
 30
0.0
 40
4.943761
 50
57.88751299999999
 51
75.427851
  0
ARC
  8
ITEM_50
 10
151.8739219999999
 20
281.767195
 30
0.0
 40
7.145521
 50
270.0
 51
284.572149
  0
POLYLINE
  8
ITEM_50
 66
     1
 10
0.0
 20
0.0
 30
0.0
  0
VERTEX
  8
ITEM_50
 10
151.8739219999999
 20
274.621674
 30
0.0
 42
0.071256
  0
VERTEX
  8
ITEM_50
 10
149.734459
 20
274.31522
 30
0.0
 42
0.082756
  0
VERTEX
  8
ITEM_50
 10
148.0555459999999
 20
273.504881
 30
0.0
 42
0.106769
 70
     2
 50
215.2261349999999
  0
VERTEX
  8
ITEM_50
 10
146.8500459999999
 20
272.1932319999999
 30
0.0
 42
0.133413
 50
215.2261349999999
  0
VERTEX
  8
ITEM_50
 10
146.4739219999999
 20
270.8087029999999
 30
0.0
 42
0.133413
  0
VERTEX
  8
ITEM_50
 10
146.8500459999999
 20
269.424174
 30
0.0
 42
0.106769
  0
VERTEX
  8
ITEM_50
 10
148.0555459999999
 20
268.112525
 30
0.0
 42
0.082756
 70
     2
 50
324.773865
  0
VERTEX
  8
ITEM_50
 10
149.734459
 20
267.302186
 30
0.0
 42
0.071256
 50
324.773865
  0
VERTEX
  8
ITEM_50
 10
151.8739219999999
 20
266.9957319999999
 30
0.0
 42
0.071256
  0
SEQEND
  8
ITEM_50
  0
ARC
  8
ITEM_50
 10
152.427883
 20
279.6362619999999
 30
0.0
 40
4.943761
 50
284.572149
 51
302.1124869999999
  0
ARC
  8
ITEM_50
 10
153.2722019999999
 20
278.290953
 30
0.0
 40
3.355449999999999
 50
302.1124869999999
 51
326.5754509999999
  0
POLYLINE
  8
ITEM_50
 66
     1
 10
0.0
 20
0.0
 30
0.0
 70
     1
  0
VERTEX
  8
ITEM_50
 10
151.8739219999999
 20
273.212866
 30
0.0
 42
0.071352
  0
VERTEX
  8
ITEM_50
 10
150.527
 20
273.019672
 30
0.0
 42
0.082828
  0
VERTEX
  8
ITEM_50
 10
149.469759
 20
272.5087029999999
 30
0.0
 42
0.106756
 70
     2
 50
215.2643899999999
  0
VERTEX
  8
ITEM_50
 10
148.710847
 20
271.681899
 30
0.0
 42
0.133256
 50
215.2643899999999
  0
VERTEX
  8
ITEM_50
 10
148.4739219999999
 20
270.8087029999999
 30
0.0
 42
0.133256
  0
VERTEX
  8
ITEM_50
 10
148.710847
 20
269.9355069999999
 30
0.0
 42
0.106756
  0
VERTEX
  8
ITEM_50
 10
149.469759
 20
269.1087029999999
 30
0.0
 42
0.082828
 70
     2
 50
324.73561
  0
VERTEX
  8
ITEM_50
 10
150.527
 20
268.597734
 30
0.0
 42
0.071352
 50
324.73561
  0
VERTEX
  8
ITEM_50
 10
151.8739219999999
 20
268.4045399999999
 30
0.0
 42
0.071352
  0
VERTEX
  8
ITEM_50
 10
153.2208439999999
 20
268.597734
 30
0.0
 42
0.082828
  0
VERTEX
  8
ITEM_50
 10
154.278085
 20
269.1087029999999
 30
0.0
 42
0.106756
 70
     2
 50
35.26438999999999
  0
VERTEX
  8
ITEM_50
 10
155.036998
 20
269.9355069999999
 30
0.0
 42
0.133256
 50
35.26438999999999
  0
VERTEX
  8
ITEM_50
 10
155.2739219999999
 20
270.8087029999999
 30
0.0
 42
0.133256
  0
VERTEX
  8
ITEM_50
 10
155.036998
 20
271.681899
 30
0.0
 42
0.106756
  0
VERTEX
  8
ITEM_50
 10
154.278085
 20
272.5087029999999
 30
0.0
 42
0.082828
 70
     2
 50
144.73561
  0
VERTEX
  8
ITEM_50
 10
153.2208439999999
 20
273.019672
 30
0.0
 42
0.071352
 50
144.73561
  0
SEQEND
  8
ITEM_50
  0
LINE
  8
ITEM_50
 10
156.3739219999999
 20
213.1225299999999
 30
0.0
 11
156.3739219999999
 21
212.7155559999999
 31
0.0
  0
ARC
  8
ITEM_50
 10
154.5526199999999
 20
213.1225299999999
 30
0.0
 40
1.821302
 50
0.0
 51
33.42454899999999
  0
ARC
  8
ITEM_50
 10
151.8739219999999
 20
208.80122
 30
0.0
 40
7.145521
 50
75.427851
 51
90.0
  0
ARC
  8
ITEM_50
 10
152.427883
 20
210.9321529999999
 30
0.0
 40
4.943761
 50
57.88751299999999
 51
75.427851
  0
ARC
  8
ITEM_50
 10
153.2722019999999
 20
212.277462
 30
0.0
 40
3.355449999999999
 50
33.42454899999999
 51
57.88751299999999
  0
ARC
  8
ITEM_50
 10
154.5526199999999
 20
226.396895
 30
0.0
 40
1.821302
 50
326.5754509999999
 51
0.0
  0
ARC
  8
ITEM_50
 10
153.2722019999999
 20
227.241962
 30
0.0
 40
3.355449999999999
 50
302.1124869999999
 51
326.5754509999999
  0
ARC
  8
ITEM_50
 10
152.427883
 20
228.5872709999999
 30
0.0
 40
4.943761
 50
284.572149
 51
302.1124869999999
  0
ARC
  8
ITEM_50
 10
151.8739219999999
 20
230.718204
 30
0.0
 40
7.145521
 50
270.0
 51
284.572149
  0
POLYLINE
  8
ITEM_50
 66
     1
 10
0.0
 20
0.0
 30
0.0
 70
     1
  0
VERTEX
  8
ITEM_50
 10
151.8739219999999
 20
222.1638749999999
 30
0.0
 42
0.071352
  0
VERTEX
  8
ITEM_50
 10
150.527
 20
221.970681
 30
0.0
 42
0.082828
  0
VERTEX
  8
ITEM_50
 10
149.469759
 20
221.459712
 30
0.0
 42
0.106756
 70
     2
 50
215.2643899999999
  0
VERTEX
  8
ITEM_50
 10
148.710847
 20
220.632908
 30
0.0
 42
0.133256
 50
215.2643899999999
  0
VERTEX
  8
ITEM_50
 10
148.4739219999999
 20
219.759712
 30
0.0
 42
0.133256
  0
VERTEX
  8
ITEM_50
 10
148.710847
 20
218.886516
 30
0.0
 42
0.106756
  0
VERTEX
  8
ITEM_50
 10
149.469759
 20
218.059712
 30
0.0
 42
0.082828
 70
     2
 50
324.73561
  0
VERTEX
  8
ITEM_50
 10
150.527
 20
217.548743
 30
0.0
 42
0.071352
 50
324.73561
  0
VERTEX
  8
ITEM_50
 10
151.8739219999999
 20
217.355549
 30
0.0
 42
0.071352
  0
VERTEX
  8
ITEM_50
 10
153.2208439999999
 20
217.548743
 30
0.0
 42
0.082828
  0
VERTEX
  8
ITEM_50
 10
154.278085
 20
218.059712
 30
0.0
 42
0.106756
 70
     2
 50
35.26438999999999
  0
VERTEX
  8
ITEM_50
 10
155.036998
 20
218.886516
 30
0.0
 42
0.133256
 50
35.26438999999999
  0
VERTEX
  8
ITEM_50
 10
155.2739219999999
 20
219.759712
 30
0.0
 42
0.133256
  0
VERTEX
  8
ITEM_50
 10
155.036998
 20
220.632908
 30
0.0
 42
0.106756
  0
VERTEX
  8
ITEM_50
 10
154.278085
 20
221.459712
 30
0.0
 42
0.082828
 70
     2
 50
144.73561
  0
VERTEX
  8
ITEM_50
 10
153.2208439999999
 20
221.970681
 30
0.0
 42
0.071352
 50
144.73561
  0
SEQEND
  8
ITEM_50
  0
POLYLINE
  8
ITEM_50
 66
     1
 10
0.0
 20
0.0
 30
0.0
  0
VERTEX
  8
ITEM_50
 10
151.8739219999999
 20
223.572683
 30
0.0
 42
0.071256
  0
VERTEX
  8
ITEM_50
 10
149.734459
 20
223.266229
 30
0.0
 42
0.082756
  0
VERTEX
  8
ITEM_50
 10
148.0555459999999
 20
222.4558899999999
 30
0.0
 42
0.106769
 70
     2
 50
215.2261349999999
  0
VERTEX
  8
ITEM_50
 10
146.8500459999999
 20
221.144241
 30
0.0
 42
0.133413
 50
215.2261349999999
  0
VERTEX
  8
ITEM_50
 10
146.4739219999999
 20
219.759712
 30
0.0
 42
0.133413
  0
VERTEX
  8
ITEM_50
 10
146.8500459999999
 20
218.375183
 30
0.0
 42
0.106769
  0
VERTEX
  8
ITEM_50
 10
148.0555459999999
 20
217.0635339999999
 30
0.0
 42
0.082756
 70
     2
 50
324.773865
  0
VERTEX
  8
ITEM_50
 10
149.734459
 20
216.253195
 30
0.0
 42
0.071256
 50
324.773865
  0
VERTEX
  8
ITEM_50
 10
151.8739219999999
 20
215.946741
 30
0.0
 42
0.071256
  0
SEQEND
  8
ITEM_50
  0
LINE
  8
ITEM_STPG
 10
151.8739219999999
 20
224.4860029999999
 30
0.0
 11
151.8739219999999
 21
214.791929
 31
0.0
  0
LINE
  8
ITEM_50
 10
156.3739219999999
 20
263.8608409999999
 30
0.0
 11
156.3739219999999
 21
226.397106
 31
0.0
  0
LINE
  8
ITEM_50
 10
142.878905
 20
179.154616
 30
0.0
 11
142.8404149999999
 21
183.565222
 31
0.0
  0
LINE
  8
ITEM_50
 10
142.8404149999999
 20
183.565222
 30
0.0
 11
134.9082449999999
 21
183.565222
 31
0.0
  0
LINE
  8
ITEM_50
 10
134.8698459999999
 20
179.165222
 30
0.0
 11
134.9082449999999
 21
183.565222
 31
0.0
  0
POINT
  8
DEFPOINTS
  6
BYBLOCK
 62
     0
 10
119.924432
 20
99.165222
 30
0.0
  0
LINE
  8
ITEM_STPG
 10
138.8739219999999
 20
185.133303
 30
0.0
 11
138.8739219999999
 21
153.9068469999999
 31
0.0
  0
LINE
  8
ITEM_STPG
 10
145.5308269999999
 20
270.8087029999999
 30
0.0
 11
158.6828769999999
 21
270.8087029999999
 31
0.0
  0
LINE
  8
ITEM_STPG
 10
146.192786
 20
219.759712
 30
0.0
 11
157.0189879999999
 21
219.759712
 31
0.0
  0
ARC
  8
ITEM_50
 10
155.3739219999999
 20
101.665222
 30
0.0
 40
3.5
 50
314.4153089999999
 51
0.0
  0
ARC
  8
ITEM_50
 10
122.3739219999999
 20
101.665222
 30
0.0
 40
3.5
 50
180.0
 51
225.584691
  0
ARC
  8
ITEM_50
 10
122.3739219999999
 20
175.665222
 30
0.0
 40
3.5
 50
90.0
 51
180.0
  0
ARC
  8
ITEM_50
 10
155.3739219999999
 20
175.665222
 30
0.0
 40
3.5
 50
0.0
 51
90.0
  0
ARC
  8
ITEM_50
 10
155.3739219999999
 20
208.2155559999999
 30
0.0
 40
3.5
 50
314.4153089999999
 51
0.0
  0
ARC
  8
ITEM_50
 10
122.3739219999999
 20
208.2155559999999
 30
0.0
 40
3.5
 50
180.0
 51
225.584691
  0
ARC
  8
ITEM_50
 10
155.3739219999999
 20
282.2155559999999
 30
0.0
 40
3.5
 50
0.0
 51
90.0
  0
ARC
  8
ITEM_50
 10
122.3739219999999
 20
282.2155559999999
 30
0.0
 40
3.5
 50
90.0
 51
180.0
  0
LINE
  8
ITEM_50
 10
203.683581
 20
283.7155559999999
 30
0.0
 11
203.683581
 21
206.2155559999999
 31
0.0
  0
LINE
  8
ITEM_50
 10
283.183581
 20
285.7155559999999
 30
0.0
 11
205.683581
 21
285.7155559999999
 31
0.0
  0
LINE
  8
ITEM_STPG
 10
223.683581
 20
288.2003
 30
0.0
 11
223.683581
 21
279.5220959999999
 31
0.0
  0
LINE
  8
ITEM_STPG
 10
201.283477
 20
265.7155559999999
 30
0.0
 11
210.2340379999999
 21
265.7155559999999
 31
0.0
  0
LINE
  8
ITEM_50
 10
204.683581
 20
205.7155559999999
 30
0.0
 11
283.683581
 21
284.7155559999999
 31
0.0
  0
LINE
  8
ITEM_STPG
 10
263.683581
 20
288.2003
 30
0.0
 11
263.683581
 21
279.5220959999999
 31
0.0
  0
LINE
  8
ITEM_50
 10
158.8739219999999
 20
208.2155559999999
 30
0.0
 11
158.8739219999999
 21
282.2155559999999
 31
0.0
  0
LINE
  8
ITEM_50
 10
118.8739219999999
 20
282.2155559999999
 30
0.0
 11
118.8739219999999
 21
208.2155559999999
 31
0.0
  0
LINE
  8
ITEM_50
 10
155.3739219999999
 20
285.7155559999999
 30
0.0
 11
122.3739219999999
 21
285.7155559999999
 31
0.0
  0
LINE
  8
ITEM_50
 10
157.823412
 20
205.7155559999999
 30
0.0
 11
119.924432
 21
205.7155559999999
 31
0.0
  0
LINE
  8
ITEM_50
 10
152.3739219999999
 20
281.7155559999999
 30
0.0
 11
125.3739219999999
 21
281.7155559999999
 31
0.0
  0
LINE
  8
ITEM_50
 10
121.3739219999999
 20
264.1713859999999
 30
0.0
 11
121.3739219999999
 21
226.397029
 31
0.0
  0
ARC
  8
ITEM_50
 10
152.3739219999999
 20
277.7155559999999
 30
0.0
 40
4.0
 50
0.0
 51
90.0
  0
ARC
  8
ITEM_50
 10
125.3739219999999
 20
277.7155559999999
 30
0.0
 40
4.0
 50
90.0
 51
180.0
  0
LINE
  8
ITEM_50
 10
152.3739219999999
 20
208.7155559999999
 30
0.0
 11
125.3739219999999
 21
208.7155559999999
 31
0.0
  0
LINE
  8
ITEM_STPG
 10
138.8739219999999
 20
203.721035
 30
0.0
 11
138.8739219999999
 21
291.834035
 31
0.0
  0
LINE
  8
ITEM_STPG
 10
144.518804
 20
265.7155559999999
 30
0.0
 11
133.099928
 21
265.7155559999999
 31
0.0
  0
LINE
  8
ITEM_STPG
 10
146.6830879999999
 20
225.7155559999999
 30
0.0
 11
130.8690799999999
 21
225.7155559999999
 31
0.0
  0
ARC
  8
ITEM_50
 10
152.3739219999999
 20
212.7155559999999
 30
0.0
 40
4.0
 50
270.0
 51
0.0
  0
ARC
  8
ITEM_50
 10
125.3739219999999
 20
212.7155559999999
 30
0.0
 40
4.0
 50
180.0
 51
270.0
  0
LINE
  8
ITEM_50
 10
155.3739219999999
 20
179.165222
 30
0.0
 11
122.3739219999999
 21
179.165222
 31
0.0
  0
LINE
  8
ITEM_50
 10
157.823412
 20
99.165222
 30
0.0
 11
119.924432
 21
99.165222
 31
0.0
  0
LINE
  8
ITEM_50
 10
158.8739219999999
 20
175.665222
 30
0.0
 11
158.8739219999999
 21
101.665222
 31
0.0
  0
LINE
  8
ITEM_50
 10
118.8739219999999
 20
175.665222
 30
0.0
 11
118.8739219999999
 21
101.665222
 31
0.0
  0
CIRCLE
  8
ITEM_50
 10
138.8739219999999
 20
159.165222
 30
0.0
 40
4.25
  0
CIRCLE
  8
ITEM_50
 10
138.8739219999999
 20
119.165222
 30
0.0
 40
4.25
  0
LINE
  8
ITEM_STPG
 10
138.8739219999999
 20
96.438117
 30
0.0
 11
138.8739219999999
 21
140.121573
 31
0.0
  0
LINE
  8
ITEM_STPG
 10
144.4175669999999
 20
119.165222
 30
0.0
 11
133.226798
 21
119.165222
 31
0.0
  0
LINE
  8
ITEM_STPG
 10
144.518804
 20
159.165222
 30
0.0
 11
133.099928
 21
159.165222
 31
0.0
  0
LINE
  8
ITEM_50
 10
204.183581
 20
205.7155559999999
 30
0.0
 11
204.683581
 21
205.7155559999999
 31
0.0
  0
LINE
  8
ITEM_50
 10
283.683581
 20
285.2155559999999
 30
0.0
 11
283.683581
 21
284.7155559999999
 31
0.0
  0
LINE
  8
ITEM_STPG
 10
278.683581
 20
279.1366529999999
 30
0.0
 11
278.683581
 21
293.2298339999999
 31
0.0
  0
LINE
  8
ITEM_50
 10
279.4516959999999
 20
290.115556
 30
0.0
 11
277.9154649999999
 21
290.115556
 31
0.0
  0
LINE
  8
ITEM_50
 10
277.9154649999999
 20
290.115556
 30
0.0
 11
277.7560439999999
 21
285.7155559999999
 31
0.0
  0
LINE
  8
ITEM_50
 10
279.4516959999999
 20
290.115556
 30
0.0
 11
279.6111169999999
 21
285.7155559999999
 31
0.0
  0
LINE
  8
ITEM_50
 10
247.4516959999999
 20
290.115556
 30
0.0
 11
247.6111169999999
 21
285.7155559999999
 31
0.0
  0
LINE
  8
ITEM_50
 10
245.9154649999999
 20
290.115556
 30
0.0
 11
245.756044
 21
285.7155559999999
 31
0.0
  0
LINE
  8
ITEM_50
 10
247.4516959999999
 20
290.115556
 30
0.0
 11
245.9154649999999
 21
290.115556
 31
0.0
  0
LINE
  8
ITEM_STPG
 10
246.683581
 20
279.1366529999999
 30
0.0
 11
246.683581
 21
293.2298339999999
 31
0.0
  0
ARC
  8
ITEM_50
 10
204.183581
 20
206.2155559999999
 30
0.0
 40
0.5
 50
180.0
 51
270.0
  0
ARC
  8
ITEM_50
 10
283.183581
 20
285.2155559999999
 30
0.0
 40
0.5
 50
0.0
 51
90.0
  0
ARC
  8
ITEM_50
 10
205.683581
 20
283.7155559999999
 30
0.0
 40
2.0
 50
90.0
 51
180.0
  0
LINE
  8
ITEM_50
 10
157.823412
 20
284.7155559999999
 30
0.0
 11
119.924432
 21
284.7155559999999
 31
0.0
  0
LINE
  8
ITEM_50
 10
142.8404149999999
 20
290.115556
 30
0.0
 11
134.9082449999999
 21
290.115556
 31
0.0
  0
LINE
  8
ITEM_50
 10
134.8698459999999
 20
285.7155559999999
 30
0.0
 11
134.9082449999999
 21
290.115556
 31
0.0
  0
LINE
  8
ITEM_50
 10
142.878905
 20
285.7049499999999
 30
0.0
 11
142.8404149999999
 21
290.115556
 31
0.0
  0
LINE
  8
ITEM_STPG
 10
131.9476229999999
 20
104.165222
 30
0.0
 11
145.54039
 21
104.165222
 31
0.0
  0
LINE
  8
ITEM_STPG
 10
132.073076
 20
136.165222
 30
0.0
 11
145.7045789999999
 21
136.165222
 31
0.0
  0
LINE
  8
ITEM_50
 10
142.8739219999999
 20
137.165222
 30
0.0
 11
134.8739219999999
 21
137.165222
 31
0.0
  0
LINE
  8
ITEM_50
 10
142.8739219999999
 20
135.165222
 30
0.0
 11
134.8739219999999
 21
135.165222
 31
0.0
  0
LINE
  8
ITEM_50
 10
142.8739219999999
 20
105.165222
 30
0.0
 11
134.8739219999999
 21
105.165222
 31
0.0
  0
LINE
  8
ITEM_50
 10
142.8739219999999
 20
103.165222
 30
0.0
 11
134.8739219999999
 21
103.165222
 31
0.0
  0
LINE
  8
ITEM_50
 10
134.8739219999999
 20
103.165222
 30
0.0
 11
134.8739219999999
 21
105.165222
 31
0.0
  0
LINE
  8
ITEM_50
 10
142.8739219999999
 20
103.165222
 30
0.0
 11
142.8739219999999
 21
105.165222
 31
0.0
  0
LINE
  8
ITEM_50
 10
134.8739219999999
 20
135.165222
 30
0.0
 11
134.8739219999999
 21
137.165222
 31
0.0
  0
LINE
  8
ITEM_50
 10
142.8739219999999
 20
135.165222
 30
0.0
 11
142.8739219999999
 21
137.165222
 31
0.0
  0
LINE
  8
ITEM_50
 10
143.8739219999999
 20
138.165222
 30
0.0
 11
133.8739219999999
 21
138.165222
 31
0.0
  0
LINE
  8
ITEM_50
 10
143.8739219999999
 20
134.165222
 30
0.0
 11
143.8739219999999
 21
138.165222
 31
0.0
  0
LINE
  8
ITEM_50
 10
143.8739219999999
 20
134.165222
 30
0.0
 11
133.8739219999999
 21
134.165222
 31
0.0
  0
LINE
  8
ITEM_50
 10
133.8739219999999
 20
134.165222
 30
0.0
 11
133.8739219999999
 21
138.165222
 31
0.0
  0
LINE
  8
ITEM_50
 10
143.8739219999999
 20
106.165222
 30
0.0
 11
133.8739219999999
 21
106.165222
 31
0.0
  0
LINE
  8
ITEM_50
 10
143.8739219999999
 20
102.165222
 30
0.0
 11
133.8739219999999
 21
102.165222
 31
0.0
  0
LINE
  8
ITEM_50
 10
143.8739219999999
 20
102.165222
 30
0.0
 11
143.8739219999999
 21
106.165222
 31
0.0
  0
LINE
  8
ITEM_50
 10
133.8739219999999
 20
102.165222
 30
0.0
 11
133.8739219999999
 21
106.165222
 31
0.0
  0
LINE
  8
ITEM_50
 10
153.585636
 20
165.165222
 30
0.0
 11
124.162208
 21
165.165222
 31
0.0
  0
POINT
  8
DEFPOINTS
  6
BYBLOCK
 62
     0
 10
118.8739219999999
 20
175.165222
 30
0.0
  0
POINT
  8
DEFPOINTS
  6
BYBLOCK
 62
     0
 10
158.8739219999999
 20
175.165222
 30
0.0
  0
POINT
  8
DEFPOINTS
  6
BYBLOCK
 62
     0
 10
145.7045789999999
 20
136.165222
 30
0.0
  0
ENDSEC
  0
EOF
